F Major Scale in Open D Tuning

The F Major Scale in Open D tuning for guitar.

The notes used in the F major scale are: F (1st or root), G (2nd), A (3rd), B♭ (4th), C (5th), D (6th), and E (7th).

F Major Scale Guitar Tabs

Root on 5th String
D |------------------------------|
A |------------------------------|
F#|-------------------8--10--11--|
D |---------7--8--10-------------|
A |--8--10-----------------------|
D |------------------------------|
Root on 4th String
D |--------------------2--3--|
A |--------------3--5--------|
F#|--------3--4--------------|
D |--3--5--------------------|
A |--------------------------|
D |--------------------------|
Root on 3rd String
D |------------------10--12--14--15--|
A |------10--12--13------------------|
F#|--11------------------------------|
D |----------------------------------|
A |----------------------------------|
D |----------------------------------|