G Minor Guitar Chord Tabs

G Minor Open Chord

e|--3--|
B|--3--|
G|--0--|
D|--0--|
A|--1--|
E|--3--|
						

G Minor Triads

e|--x--|--x--|--3--|--x--|--x--|--x--|--6--|--x--|--x---|--10--|
B|--x--|--x--|--3--|--3--|--x--|--x--|--8--|--8--|--x---|--11--|
G|--x--|--0--|--3--|--3--|--3--|--x--|--7--|--7--|--7---|--12--|
D|--0--|--0--|--x--|--5--|--5--|--5--|--x--|--8--|--8---|--x---|
A|--1--|--1--|--x--|--x--|--5--|--5--|--x--|--x--|--10--|--x---|
E|--3--|--x--|--x--|--x--|--x--|--6--|--x--|--x--|--x---|--x---|
						

G Minor Barre Chords

e|--3-----10--|
B|--3-----11--|
G|--3-----12--|
D|--5-----12--|
A|--5-----10--|
E|--3-----x---|