G Dominant Seventh Arpeggio Guitar Tabs

G Dominant Seventh Arpeggio Pattern 1

e|-------------------------1--3--1-----------------------|
B|-------------------0--3-----------3--0-----------------|
G|----------------0-----------------------0--------------|
D|----------0--3-----------------------------3--0--------|
A|------2------------------------------------------2-----|
E|--3-------------------------------------------------3--|
		

G Dominant Seventh Arpeggio Pattern 2

e|--------------------------3--------------------------|
B|--------------------3--6-----6--3--------------------|
G|-----------------4-----------------4-----------------|
D|-----------3--5-----------------------5--3-----------|
A|-----2--5-----------------------------------5--2-----|
E|--3-----------------------------------------------3--|
		

G Dominant Seventh Arpeggio Pattern 3


e|-----------------7-----------------|
B|-----------5--8-----8--5-----------|
G|--------7-----------------7--------|
D|--5--9-----------------------9--5--|
A|-----------------------------------|
E|-----------------------------------|		

G Dominant Seventh Arpeggio Pattern 5

e|-------------------7--10--7-------------------|
B|----------------8------------8----------------|
G|---------7--10------------------10--7---------|
D|------9--------------------------------9------|
A|--10--------------------------------------10--|
E|----------------------------------------------|
		

G Dominant Seventh Arpeggio Pattern 4

e|-------------------------10--13--10-------------------------|
B|---------------------12--------------12---------------------|
G|-------------10--12----------------------12--10-------------|
D|------9--12--------------------------------------12--9------|
A|--10----------------------------------------------------10--|
E|------------------------------------------------------------|