F Minor Scales Guitar Tabs

F Natural Minor Scale starting on the D string

e|-----------------------------------------------|
B|--------------------4--6--4--------------------|
G|-----------3--5--6-----------6--5--3-----------|
D|--3--5--6-----------------------------6--5--3--|
A|-----------------------------------------------|
E|-----------------------------------------------|
						

F Natural Minor Scale starting on the low E string

e|-----------------------------------------------|
B|-----------------------------------------------|
G|-----------------------------------------------|
D|--------------------1--3--1--------------------|
A|-----------1--3--4-----------4--3--1-----------|
E|--1--3--4-----------------------------4--3--1--|
						

F Harmonic Minor Scale starting on the D string

e|-----------------------------------------------|
B|--------------------5--6--5--------------------|
G|-----------3--5--6-----------6--5--3-----------|
D|--3--5--6-----------------------------6--5--3--|
A|-----------------------------------------------|
E|-----------------------------------------------|
						

F Harmonic Minor Scale starting on the low E string

e|-----------------------------------------------|
B|-----------------------------------------------|
G|-----------------------------------------------|
D|--------------------2--3--2--------------------|
A|-----------1--3--4-----------4--3--1-----------|
E|--1--3--4-----------------------------4--3--1--|