F Minor Guitar Chord Tabs

F Minor Triads

e|--x--|--1--|--x--|--4--|--x--|--x--|--x--|--x---|--8---|--x---|
B|--x--|--1--|--1--|--6--|--6--|--x--|--x--|--9---|--9---|--x---|
G|--1--|--1--|--1--|--5--|--5--|--5--|--x--|--10--|--10--|--x---|
D|--3--|--x--|--3--|--x--|--6--|--6--|--6--|--10--|--x---|--10--|
A|--3--|--x--|--x--|--x--|--x--|--8--|--8--|--x---|--x---|--11--|
E|--x--|--x--|--x--|--x--|--x--|--x--|--8--|--x---|--x---|--13--|
						

F Minor Barre Chords

e|--1----9---|
B|--1----9---|
G|--1----10--|
D|--3----10--|
A|--3----9---|
E|--1----x---|