F minor Arpeggio Guitar Tabs

F minor Arpeggio Pattern 1

e|--------------------1--------------------|
B|-----------------1-----1-----------------|
G|--------------1-----------1--------------|
D|-----------3-----------------3-----------|
A|--------3-----------------------3--------|
E|--1--4-----------------------------4--1--|
						

F minor Arpeggio Pattern 2

e|--------------4--------------------------|
B|-----------6-----6-----------------------|
G|--------5-----------5--------------------|
D|--3--6-----------------6--3-----------3--|
A|-----------------------------3-----3-----|
E|--------------------------------4--------|
						

F minor Arpeggio Pattern 3

e|--------------4--8--4--------------------------|
B|-----------6-----------6-----------------------|
G|--------5-----------------5--------------------|
D|-----6-----------------------6-----------------|
A|--8-----------------------------8-----------8--|
E|-----------------------------------8--4--8-----|
						

F minor Arpeggio Pattern 4

e|--------------------8--------------------------|
B|-----------------9-----9-----------------------|
G|-------------10-----------10-------------------|
D|---------10-------------------10---------------|
A|--8--11---------------------------11--8-----8--|
E|-----------------------------------------8-----|
						

F minor Arpeggio Pattern 5

e|--------------------------13--------------------------|
B|----------------------13------13----------------------|
G|--------------10--13--------------13--10--------------|
D|----------10------------------------------10----------|
A|------11--------------------------------------11------|
E|--13----------------------------------------------13--|