F Dominant Seventh Arpeggio Guitar Tabs

F Dominant Seventh Arpeggio Pattern 1

e|--------------------------1--------------------------|
B|--------------------1--4-----4--1--------------------|
G|-----------------2-----------------2-----------------|
D|-----------1--3-----------------------3--1-----------|
A|-----0--3-----------------------------------3--0-----|
E|--1-----------------------------------------------1--|
		

F Dominant Seventh Arpeggio Pattern 2

e|-----------------5-----------------|
B|-----------4--6-----6--4-----------|
G|--------5-----------------5--------|
D|--3--7-----------------------7--3--|
A|-----------------------------------|
E|-----------------------------------|
		

F Dominant Seventh Arpeggio Pattern 3

e|-----------------5--8--5-----------------|
B|--------------6-----------6--------------|
G|--------5--8-----------------8--5--------|
D|-----7-----------------------------7-----|
A|--8-----------------------------------8--|
E|-----------------------------------------|
		

F Dominant Seventh Arpeggio Pattern 5

e|-----------------------8--11--8-----------------------|
B|-------------------10------------10-------------------|
G|------------8--10--------------------10--8------------|
D|-----7--10----------------------------------10--7-----|
A|--8------------------------------------------------8--|
E|------------------------------------------------------|
		

F Dominant Seventh Arpeggio Pattern 4

e|------------------------------11--13--11-----------------------------|
B|----------------------10--13--------------13--10---------------------|
G|------------------10-----------------------------10------------------|
D|----------10--13-------------------------------------13--10----------|
A|------12-----------------------------------------------------12------|
E|--13-------------------------------------------------------------13--|