E Minor Scales Guitar Tabs

E Natural Minor Scale starting on the D string

e|-----------------------------------------------|
B|--------------------3--5--3--------------------|
G|-----------2--4--5-----------5--4--2-----------|
D|--2--4--5-----------------------------5--4--2--|
A|-----------------------------------------------|
E|-----------------------------------------------|
						

E Natural Minor Scale starting on the low E string

e|-----------------------------------------------|
B|-----------------------------------------------|
G|-----------------------------------------------|
D|--------------------0--2--0--------------------|
A|-----------0--2--3-----------3--2--0-----------|
E|--0--2--3-----------------------------3--2--0--|
						

E Harmonic Minor Scale starting on the D string

e|-----------------------------------------------|
B|--------------------4--5--4--------------------|
G|-----------2--4--5-----------5--4--2-----------|
D|--2--4--5-----------------------------5--4--2--|
A|-----------------------------------------------|
E|-----------------------------------------------|
							

E Harmonic Minor Scale starting on the low E string

e|-----------------------------------------------|
B|-----------------------------------------------|
G|-----------------------------------------------|
D|--------------------1--2--1--------------------|
A|-----------0--2--3-----------3--2--0-----------|
E|--0--2--3-----------------------------3--2--0--|