E minor Arpeggio Guitar Tabs

E minor Arpeggio Pattern 1

e|--------------------0--------------------|
B|-----------------0-----0-----------------|
G|--------------0-----------0--------------|
D|-----------2-----------------2-----------|
A|--------2-----------------------2--------|
E|--0--3-----------------------------3--0--|
						

E minor Arpeggio Pattern 2

e|--------------3--------------------------|
B|-----------5-----5-----------------------|
G|--------4-----------4--------------------|
D|--2--5-----------------5--2-----------2--|
A|-----------------------------2-----2-----|
E|--------------------------------3--------|
						

E minor Arpeggio Pattern 3

e|--------------3--7--3--------------------------|
B|-----------5-----------5-----------------------|
G|--------4-----------------4--------------------|
D|-----5-----------------------5-----------------|
A|--7-----------------------------7-----------7--|
E|-----------------------------------7--3--7-----|
						

E minor Arpeggio Pattern 4

e|------------------7------------------------|
B|---------------8-----8---------------------|
G|------------9-----------9------------------|
D|---------9-----------------9---------------|
A|--7--10-----------------------10--7-----7--|
E|-------------------------------------7-----|
						

E minor Arpeggio Pattern 5

e|------------------------12------------------------|
B|--------------------12------12--------------------|
G|-------------9--12--------------12--9-------------|
D|----------9----------------------------9----------|
A|------10----------------------------------10------|
E|--12------------------------------------------12--|