E Major Scale Guitar Tabs

E Major Scale starting on the low E or 6th string

e|------------------------------------------------------11--12--|
B|----------------------------------------------12--14----------|
G|----------------------------------11--13--14------------------|
D|----------------------11--13--14------------------------------|
A|----------11--12--14------------------------------------------|
E|--12--14------------------------------------------------------|
						
e|--12--11------------------------------------------------------|
B|----------14--12----------------------------------------------|
G|------------------14--13--11----------------------------------|
D|------------------------------14--13--11----------------------|
A|------------------------------------------14--12--11----------|
E|------------------------------------------------------14--12--|
						

E Major Scale starting on the A or 5th string

e|-----------------------------------------------|
B|-----------------------------------------------|
G|-----------------6--8--9--8--6-----------------|
D|--------6--7--9-----------------9--7--6--------|
A|--7--9-----------------------------------9--7--|
E|-----------------------------------------------|
						

E Major Scale starting on the D or 4th string

e|-----------------------------------------------|
B|-----------------2--4--5--4--2-----------------|
G|--------1--2--4-----------------4--2--1--------|
D|--2--4-----------------------------------4--2--|
A|-----------------------------------------------|
E|-----------------------------------------------|
						

E Major Scale starting on the G or 3rd string

e|--------------------9--11--12--11--9--------------------|
B|---------9--10--12--------------------12--10--9---------|
G|--9--11------------------------------------------11--9--|
D|--------------------------------------------------------|
A|--------------------------------------------------------|
E|--------------------------------------------------------|