E Major Guitar Chord Tabs

E Major Open Chord

e|--0--|
B|--0--|
G|--1--|
D|--2--|
A|--2--|
E|--0--|
						

E Major Triads

e|--x--|--x--|--0--|--4--|--x--|--x--|--x--|--x--|--7--|--x---|--x---|
B|--0--|--x--|--0--|--5--|--5--|--x--|--x--|--9--|--9--|--x---|--x---|
G|--1--|--1--|--1--|--4--|--4--|--4--|--x--|--9--|--9--|--x---|--10--|
D|--2--|--2--|--x--|--x--|--6--|--6--|--6--|--9--|--x--|--9---|--11--|
A|--x--|--2--|--x--|--x--|--x--|--7--|--7--|--x--|--x--|--11--|--11--|
E|--x--|--x--|--x--|--x--|--x--|--x--|--7--|--x--|--x--|--12--|--x---|
						

E Major Barre Chords

e|--12----7--|
B|--12----9--|
G|--13----9--|
D|--14----9--|
A|--14----7--|
E|--12----x--|