D Major Guitar Chord Tabs

D Major Open Chord

e|--2--|
B|--3--|
G|--2--|
D|--0--|
A|--x--|
E|--x--|
						

D Major Triads

e|--2--|--x--|--x--|--x--|--x--|--5--|--x---|--x---|--x---|--10--|
B|--3--|--3--|--x--|--x--|--7--|--7--|--x---|--x---|--10--|--10--|
G|--2--|--2--|--2--|--x--|--7--|--7--|--x---|--11--|--11--|--11--|
D|--x--|--4--|--4--|--4--|--7--|--x--|--7---|--12--|--12--|--x---|
A|--x--|--x--|--5--|--5--|--x--|--x--|--9---|--12--|--x---|--x---|
E|--x--|--x--|--x--|--5--|--x--|--x--|--10--|--x---|--x---|--x---|
						

D Major Barre Chords

e|--10----5--|
B|--10----7--|
G|--11----7--|
D|--12----7--|
A|--12----5--|
E|--10----x--|