C minor Arpeggio Guitar Tabs

C minor Arpeggio Pattern 1

e|--------------3--------------------|
B|-----------1-----1-----------------|
G|--------0-----------0--------------|
D|-----1-----------------1-----------|
A|--3-----------------------3-----3--|
E|-----------------------------3-----|
						

C minor Arpeggio Pattern 2

e|-----------------3-----------------------|
B|--------------4-----4--------------------|
G|-----------5-----------5-----------------|
D|--------5-----------------5--------------|
A|--3--6-----------------------6--3-----3--|
E|-----------------------------------3-----|
						

C minor Arpeggio Pattern 3

e|--------------------8--------------------|
B|-----------------8-----8-----------------|
G|-----------5--8-----------8--5-----------|
D|--------5-----------------------5--------|
A|-----6-----------------------------6-----|
E|--8-----------------------------------8--|
						

C minor Arpeggio Pattern 4

e|-----------------------8-----------------------|
B|--------------------8-----8--------------------|
G|-----------------8-----------8-----------------|
D|-------------10-----------------10-------------|
A|---------10-------------------------10---------|
E|--8--11---------------------------------11--8--|
						

C minor Arpeggio Pattern 5

e|------------------11----------------------------------|
B|--------------13------13------------------------------|
G|----------12--------------12--------------------------|
D|--10--13----------------------13--10--------------10--|
A|--------------------------------------10------10------|
E|------------------------------------------11----------|