A Minor Guitar Chord Tabs

A Minor Open Chord

e|--0--|
B|--1--|
G|--2--|
D|--2--|
A|--0--|
E|--x--|
						

A Minor Triads

e|--x--|--0--|--x--|--5--|--x--|--x--|--x--|--8---|--x---|--x---|
B|--1--|--1--|--x--|--5--|--5--|--x--|--x--|--10--|--10--|--x---|
G|--2--|--2--|--x--|--5--|--5--|--5--|--x--|--9---|--9---|--9---|
D|--2--|--x--|--2--|--x--|--7--|--7--|--7--|--x---|--10--|--10--|
A|--x--|--x--|--3--|--x--|--x--|--7--|--7--|--x---|--x---|--12--|
E|--x--|--x--|--5--|--x--|--x--|--x--|--8--|--x---|--x---|--x---|
						

A Minor Barre Chords

e|--5-----12--|
B|--5-----13--|
G|--5-----14--|
D|--7-----14--|
A|--7-----12--|
E|--5-----x---|