A Major Guitar Chord Tabs

A Major Open Chord

e|--0--|
B|--2--|
G|--2--|
D|--2--|
A|--0--|
E|--x--|
						

A Major Triads

e|--x--|--0--|--x--|--5--|--x--|--x--|--x--|--9---|--x---|--x---|
B|--2--|--2--|--x--|--5--|--5--|--x--|--x--|--10--|--10--|--x---|
G|--2--|--2--|--x--|--6--|--6--|--6--|--x--|--9---|--9---|--9---|
D|--2--|--x--|--2--|--x--|--7--|--7--|--7--|--x---|--11--|--11--|
A|--x--|--x--|--4--|--x--|--x--|--7--|--7--|--x---|--x---|--12--|
E|--x--|--x--|--5--|--x--|--x--|--x--|--9--|--x---|--x---|--x---|
						

A Major Barre Chords

e|--5-----12--|
B|--5-----14--|
G|--6-----14--|
D|--7-----14--|
A|--7-----12--|
E|--5-----x---|