A Dominant Seventh Arpeggio Guitar Tabs

A Dominant Seventh Arpeggio Pattern 1

e|--------------------0--3--0--------------------|
B|-----------------2-----------2-----------------|
G|-----------0--2-----------------2--0-----------|
D|--------2-----------------------------2--------|
A|--0--4-----------------------------------4--0--|
E|-----------------------------------------------|
		

A Dominant Seventh Arpeggio Pattern 2

e|-----------------------3--5--3------------------------|
B|-----------------2--5-----------5--2------------------|
G|--------------2-----------------------2---------------|
D|--------2--5-----------------------------5--2---------|
A|-----4------------------------------------------4-----|
E|--5------------------------------------------------5--|
		

A Dominant Seventh Arpeggio Pattern 3

e|--------------------------5--------------------------|
B|--------------------5--8-----8--5--------------------|
G|-----------------6-----------------6-----------------|
D|-----------5--7-----------------------7--5-----------|
A|-----4--7-----------------------------------7--4-----|
E|--5-----------------------------------------------5--|
		

A Dominant Seventh Arpeggio Pattern 4

e|-------------------9-------------------|
B|------------8--10-----10--8------------|
G|---------9-------------------9---------|
D|--7--11-------------------------11--7--|
A|---------------------------------------|
E|---------------------------------------|
		

A Dominant Seventh Arpeggio Pattern 5

e|---------------------9--12--9---------------------|
B|-----------------10------------10-----------------|
G|----------9--12--------------------12--9----------|
D|------11----------------------------------11------|
A|--12------------------------------------------12--|
E|--------------------------------------------------|