A Major Scale in Open G Tuning

The A Major Scale in Open G tuning for guitar.

The notes used in the A major scale are: A (1st or root), B (2nd), C# (3rd), D (4th), E (5th), F# (6th), and G# (7th).

A Major Scale Guitar Tabs

D|-----------------------------------------------|
B|-----------------------------------------------|
G|-----------------------------------------------|
D|--------------2--4--6--7--6--4--2--------------|
G|--2--4--6--7-----------------------7--6--4--2--|
D|-----------------------------------------------|
D|--------------------6--7--6--------------------|
B|--------------5--7-----------7--5--------------|
G|-----4--6--7-----------------------7--6--4-----|
D|--7-----------------------------------------7--|
G|-----------------------------------------------|
D|-----------------------------------------------|