F Minor Pentatonic Scale Open G Tuning

The F Minor Pentatonic Scale in Open G tuning for guitar.

The note formula for the Minor Pentatonic Scale is the 1, 3♭, 4, 5, and 7♭ notes of the root note's major scale scale. The notes used in the F minor pentatonic scale are: F (1st or root), A♭ (flat 3rd), B♭ (4th), C (5th), and E♭ (flat 7th).

F Minor Pentatonic Scale Guitar Tabs

D|--------------------------------3--------------------------------|
B|--------------------------1--4-----4--1--------------------------|
G|--------------------1--3-----------------3--1--------------------|
D|--------------1--3-----------------------------3--1--------------|
G|-----1--3--5-----------------------------------------5--3--1-----|
D|--3-----------------------------------------------------------3--|
D|-----------------------------------------------------------|
B|-----------------------------4-----------------------------|
G|-----------------------3--5-----5--3-----------------------|
D|-----------------3--6-----------------6--3-----------------|
G|--------3--5--8-----------------------------8--5--3--------|
D|--3--6-----------------------------------------------6--3--|