Open D Tuning - Minor Chords

Minor Guitar Chords and Triads for Open D Tuning - DADF♯AD

Minor Triads for Open D


Minor Triad Forms
(root note in red)

Minor Triads Guitar Tab

     Em   Fm   Gm   Am   Bm   Cm    Dm   
D |-------------------------------------|
A |--2----3----5----7----9----10----12--|
F#|--1----2----4----6----8----9-----11--|
D |--2----3----5----7----9----10----12--|
A |-------------------------------------|
D |-------------------------------------|

These inverted triad forms are moveable chords, meaning they can be used up and down the neck of the guitar by moving the root note’s position (shown in red).

Inversion 1
     Em   Fm   Gm   Am   Bm   Cm    Dm   
D |--2----3----5----7----9----10----12--|
A |--2----3----5----7----9----10----12--|
F#|--1----2----4----6----8----9-----11--|
D |-------------------------------------|
A |-------------------------------------|
D |-------------------------------------|

Inversion 2
     Em   Fm   Gm   Am   Bm   Cm   Dm   
D |------------------------------------|
A |------------------------------------|
F#|--1----2----4----6----8----9----11--|
D |--2----3----5----7----9----10---12--|
A |--2----3----5----7----9----10---12--|
D |------------------------------------|

Minor Barre Chords for Open D


Minor Barre Chord Form in Open D
(root note in red)

Minor Chords Guitar Tab

     Em   Fm   Gm   Am   Bm   Cm    Dm   
D |--2----3----5----7----9----10----12--|
A |--2----3----5----7----9----10----12--|
F#|--1----2----4----6----8----9-----11--|
D |--2----3----5----7----9----10----12--|
A |--2----3----5----7----9----10----12--|
D |--2----3----5----7----9----10----12--|