G Minor Scales Guitar Tabs

G Natural Minor Scale starting on the D string

e|-----------------------------------------------|
B|--------------------6--8--6--------------------|
G|-----------5--7--8-----------8--7--5-----------|
D|--5--7--8-----------------------------8--7--5--|
A|-----------------------------------------------|
E|-----------------------------------------------|
						

G Natural Minor Scale starting on the low E string

e|-----------------------------------------------|
B|-----------------------------------------------|
G|-----------------------------------------------|
D|--------------------3--5--3--------------------|
A|-----------3--5--6-----------6--5--3-----------|
E|--3--5--6-----------------------------6--5--3--|
						

G Harmonic Minor Scale starting on the D string

e|-----------------------------------------------|
B|--------------------7--8--7--------------------|
G|-----------5--7--8-----------8--7--5-----------|
D|--5--7--8-----------------------------8--7--5--|
A|-----------------------------------------------|
E|-----------------------------------------------|
						

G Harmonic Minor Scale starting on the low E string

e|-----------------------------------------------|
B|-----------------------------------------------|
G|-----------------------------------------------|
D|--------------------4--5--4--------------------|
A|-----------3--5--6-----------6--5--3-----------|
E|--3--5--6-----------------------------6--5--3--|