G minor Arpeggio Guitar Tabs

G minor Arpeggio Pattern 1

e|--------------------3--------------------|
B|-----------------3-----3-----------------|
G|-----------0--3-----------3--0-----------|
D|--------0-----------------------0--------|
A|-----1-----------------------------1-----|
E|--3-----------------------------------3--|
						

G minor Arpeggio Pattern 2

e|--------------------3--------------------|
B|-----------------3-----3-----------------|
G|--------------3-----------3--------------|
D|-----------5-----------------5-----------|
A|--------5-----------------------5--------|
E|--3--6-----------------------------6--3--|
						

G minor Arpeggio Pattern 3

e|--------------6--------------------------|
B|-----------8-----8-----------------------|
G|--------7-----------7--------------------|
D|--5--8-----------------8--5-----------5--|
A|-----------------------------5-----5-----|
E|--------------------------------6--------|
						

G minor Arpeggio Pattern 4

e|---------------6--10--6------------------------------|
B|------------8------------8---------------------------|
G|---------7------------------7------------------------|
D|------8------------------------8---------------------|
A|--10------------------------------10-------------10--|
E|--------------------------------------10--6--10------|
						

G minor Arpeggio Pattern 5

e|----------------------10------------------------------|
B|------------------11------11--------------------------|
G|--------------12--------------12----------------------|
D|----------12----------------------12------------------|
A|--10--13------------------------------13--10------10--|
E|----------------------------------------------10------|