G Major Scale Guitar Tabs

G Major Scale starting on the low E or 6th string

e|-----------------------------------------2--3--|
B|-----------------------------------3--5--------|
G|--------------------------2--4--5--------------|
D|-----------------2--4--5-----------------------|
A|--------2--3--5--------------------------------|
E|--3--5-----------------------------------------|
						
e|--3--2-----------------------------------------|
B|--------5--3-----------------------------------|
G|--------------5--4--2--------------------------|
D|-----------------------5--4--2-----------------|
A|--------------------------------5--3--2--------|
E|-----------------------------------------5--3--|
						

G Major Scale starting on the A or 5th string

e|----------------------------------------------------------|
B|----------------------------------------------------------|
G|---------------------9--11--12--11--9---------------------|
D|----------9--10--12--------------------12--10--9----------|
A|--10--12------------------------------------------12--10--|
E|----------------------------------------------------------|
						

G Major Scale starting on the D or 4th string

e|-----------------------------------------------|
B|-----------------5--7--8--7--5-----------------|
G|--------4--5--7-----------------7--5--4--------|
D|--5--7-----------------------------------7--5--|
A|-----------------------------------------------|
E|-----------------------------------------------|
						

G Major Scale starting on the G or 3rd string

e|-----------------0--2--3--2--0-----------------|
B|--------0--1--3-----------------3--1--0--------|
G|--0--2-----------------------------------2--0--|
D|-----------------------------------------------|
A|-----------------------------------------------|
E|-----------------------------------------------|