G Major Guitar Chord Tabs

G Major Open Chord

e|--3--|
B|--3--|
G|--0--|
D|--0--|
A|--2--|
E|--3--|
						

G Major Triads

e|--x--|--x--|--3--|--x--|--x--|--x--|--7--|--x--|--x---|--10--|
B|--x--|--0--|--3--|--3--|--x--|--x--|--8--|--8--|--x---|--12--|
G|--x--|--0--|--4--|--4--|--4--|--x--|--7--|--7--|--7---|--12--|
D|--0--|--0--|--x--|--5--|--5--|--5--|--x--|--9--|--9---|--x---|
A|--2--|--x--|--x--|--x--|--5--|--5--|--x--|--x--|--10--|--x---|
E|--3--|--x--|--x--|--x--|--x--|--7--|--x--|--x--|--x---|--x---|
						

G Major Barre Chords

e|--3-----10--|
B|--3-----12--|
G|--4-----12--|
D|--5-----12--| 
A|--5-----10--|
E|--3-----x---|