G Major Arpeggio Guitar Tabs

G Major Arpeggio Pattern 1

e|--------------------3--------------------|
B|--------------0--3-----3--0--------------|
G|-----------0-----------------0-----------|
D|--------0-----------------------0--------|
A|-----2-----------------------------2-----|
E|--3-----------------------------------3--|
						

G Major Arpeggio Pattern 2

e|--------------------3--------------------|
B|-----------------3-----3-----------------|
G|--------------4-----------4--------------|
D|-----------5-----------------5-----------|
A|-----2--5-----------------------5--2-----|
E|--3-----------------------------------3--|
						

G Major Arpeggio Pattern 3

e|--------------7--------------------------|
B|-----------8-----8-----------------------|
G|--------7-----------7--------------------|
D|--5--9-----------------9--5-----------5--|
A|-----------------------------5-----5-----|
E|--------------------------------7--------|
						

G Major Arpeggio Pattern 4

e|---------------7--10--7------------------------------|
B|------------8------------8---------------------------|
G|---------7------------------7------------------------|
D|------9------------------------9---------------------|
A|--10------------------------------10-------------10--|
E|--------------------------------------10--7--10------|
						

G Major Arpeggio Pattern 5

e|---------------------10-----------------------------|
B|-----------------12------12-------------------------|
G|-------------12--------------12---------------------|
D|------9--12----------------------12--9--------------|
A|--10------------------------------------10------10--|
E|--------------------------------------------10------|