F minor Pentatonic Scale Guitar Tabs

F minor Pentatonic Scale Pattern 1

e|--------------------------------1--4--|
B|--------------------------1--4--------|
G|--------------------1--3--------------|
D|--------------1--3--------------------|
A|--------1--3--------------------------|
E|--1--4--------------------------------|
						
e|--4--1--------------------------------|
B|--------4--1--------------------------|
G|--------------3--1--------------------|
D|--------------------3--1--------------|
A|--------------------------3--1--------|
E|--------------------------------4--1--|
						

F minor Pentatonic Scale Pattern 2

e|--------------------------------4--6--|
B|--------------------------4--6--------|
G|--------------------3--5--------------|
D|--------------3--6--------------------|
A|--------3--6--------------------------|
E|--4--6--------------------------------|
						
e|--6--4--------------------------------|
B|--------6--4--------------------------|
G|--------------5--3--------------------|
D|--------------------6--3--------------|
A|--------------------------6--3--------|
E|--------------------------------6--4--|
						

F minor Pentatonic Scale Pattern 3

e|--------------------------------6--8--|
B|--------------------------6--9--------|
G|--------------------5--8--------------|
D|--------------6--8--------------------|
A|--------6--8--------------------------|
E|--6--8--------------------------------|
						
e|--8--6--------------------------------|
B|--------9--6--------------------------|
G|--------------8--5--------------------|
D|--------------------8--6--------------|
A|--------------------------8--6--------|
E|--------------------------------8--6--|
						

F minor Pentatonic Scale Pattern 4

e|-------------------------------------8--11--|
B|------------------------------9--11---------|
G|-----------------------8--10----------------|
D|----------------8--10-----------------------|
A|---------8--11------------------------------|
E|--8--11-------------------------------------|
						
e|--11--8-------------------------------------|
B|---------11--9------------------------------|
G|----------------10--8-----------------------|
D|-----------------------10--8----------------|
A|------------------------------11--8---------|
E|-------------------------------------11--8--|
						

F minor Pentatonic Scale Pattern 5

e|------------------------------------------11--13--|
B|----------------------------------11--13----------|
G|--------------------------10--13------------------|
D|------------------10--13--------------------------|
A|----------11--13----------------------------------|
E|--11--13------------------------------------------|
						
e|--13--11------------------------------------------|
B|----------13--11----------------------------------|
G|------------------13--10--------------------------|
D|--------------------------13--10------------------|
A|----------------------------------13--11----------|
E|------------------------------------------13--11--|