F Major Scale Guitar Tabs

F Major Scale starting on the low E or 6th string

e|-----------------------------------------0--1--|
B|-----------------------------------1--3--------|
G|--------------------------0--2--3--------------|
D|-----------------0--2--3-----------------------|
A|--------0--1--3--------------------------------|
E|--1--3-----------------------------------------|
						
e|--1--0-----------------------------------------|
B|--------3--1-----------------------------------|
G|--------------3--2--0--------------------------|
D|-----------------------3--2--0-----------------|
A|--------------------------------3--1--0--------|
E|-----------------------------------------3--1--|
						

F Major Scale starting on the A or 5th string

e|----------------------------------------------------|
B|----------------------------------------------------|
G|-------------------7--9--10--9--7-------------------|
D|---------7--8--10------------------10--8--7---------|
A|--8--10--------------------------------------10--8--|
E|----------------------------------------------------|
						

F Major Scale starting on the D or 4th string

e|-----------------------------------------------|
B|-----------------3--5--6--5--3-----------------|
G|--------2--3--5-----------------5--3--2--------|
D|--3--5-----------------------------------5--3--|
A|-----------------------------------------------|
E|-----------------------------------------------|
						

F Major Scale starting on the G or 3rd string

e|----------------------10--12--13--12--10----------------------|
B|----------10--11--13----------------------13--11--10----------|
G|--10--12----------------------------------------------12--10--|
D|--------------------------------------------------------------|
A|--------------------------------------------------------------|
E|--------------------------------------------------------------|