F Major Guitar Chord Tabs

F Major Triads

e|--x--|--1--|--x--|--5--|--x--|--x--|--x--|--x---|--8---|--x---|
B|--x--|--1--|--1--|--6--|--6--|--x--|--x--|--10--|--10--|--x---|
G|--2--|--2--|--2--|--5--|--5--|--5--|--x--|--10--|--10--|--x---|
D|--3--|--x--|--3--|--x--|--7--|--7--|--7--|--10--|--x---|--10--|
A|--3--|--x--|--x--|--x--|--x--|--8--|--8--|--x---|--x---|--12--|
E|--x--|--x--|--x--|--x--|--x--|--x--|--8--|--x---|--x---|--13--|
						

F Major Barre Chords

e|--1----9---|
B|--1----10--|
G|--2----10--|
D|--3----10--|
A|--3----9---|
E|--1----x---|