F Major Arpeggio Guitar Tabs

F Major Arpeggio Pattern 1

e|--------------------1--------------------|
B|-----------------1-----1-----------------|
G|--------------2-----------2--------------|
D|-----------3-----------------3-----------|
A|-----0--3-----------------------3--0-----|
E|--1-----------------------------------1--|
						

F Major Arpeggio Pattern 2

e|--------------5--------------------------|
B|-----------6-----6-----------------------|
G|--------5-----------5--------------------|
D|--3--7-----------------7--3-----------3--|
A|-----------------------------3-----3-----|
E|--------------------------------5--------|
						

F Major Arpeggio Pattern 3

e|--------------5--8--5--------------------------|
B|-----------6-----------6-----------------------|
G|--------5-----------------5--------------------|
D|-----7-----------------------7-----------------|
A|--8-----------------------------8-----------8--|
E|-----------------------------------8--5--8-----|
						

F Major Arpeggio Pattern 4

e|--------------------8--------------------------|
B|----------------10-----10----------------------|
G|------------10-------------10------------------|
D|-----7--10---------------------10--7-----------|
A|--8-----------------------------------8-----8--|
E|-----------------------------------------8-----|
						

F Major Arpeggio Pattern 5

e|--------------------------13--------------------------|
B|------------------10--13------13--10------------------|
G|--------------10----------------------10--------------|
D|----------10------------------------------10----------|
A|------12--------------------------------------12------|
E|--13----------------------------------------------13--|