E minor Pentatonic Scale Guitar Tabs

E minor Pentatonic Scale Pattern 1

e|--------------------------------0--3--|
B|--------------------------0--3--------|
G|--------------------0--2--------------|
D|--------------0--2--------------------|
A|--------0--2--------------------------|
E|--0--3--------------------------------|
						
e|--3--0--------------------------------|
B|--------3--0--------------------------|
G|--------------2--0--------------------|
D|--------------------2--0--------------|
A|--------------------------2--0--------|
E|--------------------------------3--0--|
						

E minor Pentatonic Scale Pattern 2

e|--------------------------------3--5--|
B|--------------------------3--5--------|
G|--------------------2--4--------------|
D|--------------2--5--------------------|
A|--------2--5--------------------------|
E|--3--5--------------------------------|
						
e|--5--3--------------------------------|
B|--------5--3--------------------------|
G|--------------4--2--------------------|
D|--------------------5--2--------------|
A|--------------------------5--2--------|
E|--------------------------------5--3--|
						

E minor Pentatonic Scale Pattern 3

e|--------------------------------5--7--|
B|--------------------------5--8--------|
G|--------------------4--7--------------|
D|--------------5--7--------------------|
A|--------5--7--------------------------|
E|--5--7--------------------------------|
						
e|--7--5--------------------------------|
B|--------8--5--------------------------|
G|--------------7--4--------------------|
D|--------------------7--5--------------|
A|--------------------------7--5--------|
E|--------------------------------7--5--|
						

E minor Pentatonic Scale Pattern 4

e|-----------------------------------7--10--|
B|----------------------------8--10---------|
G|----------------------7--9----------------|
D|----------------7--9----------------------|
A|---------7--10----------------------------|
E|--7--10-----------------------------------|
						
e|--10--7-----------------------------------|
B|---------10--8----------------------------|
G|----------------9--7----------------------|
D|----------------------9--7----------------|
A|----------------------------10--7---------|
E|-----------------------------------10--7--|
						

E minor Pentatonic Scale Pattern 5

e|----------------------------------------10--12--|
B|--------------------------------10--12----------|
G|-------------------------9--12------------------|
D|------------------9--12-------------------------|
A|----------10--12--------------------------------|
E|--10--12----------------------------------------|
						
e|--12--10----------------------------------------|
B|----------12--10--------------------------------|
G|------------------12--9-------------------------|
D|-------------------------12--9------------------|
A|--------------------------------12--10----------|
E|----------------------------------------12--10--|