E Minor Guitar Chord Tabs

E Minor Open Chord

e|--0--|
B|--0--|
G|--0--|
D|--2--|
A|--2--|
E|--0--|
						

E Minor Triads

e|--x--|--x--|--0--|--3--|--x--|--x--|--x--|--x--|--7--|--x---|--x---|
B|--0--|--x--|--0--|--5--|--5--|--x--|--x--|--8--|--8--|--x---|--x---|
G|--0--|--0--|--0--|--4--|--4--|--4--|--x--|--9--|--9--|--x---|--9---|
D|--2--|--2--|--x--|--x--|--5--|--5--|--5--|--9--|--x--|--9---|--9---|
A|--x--|--2--|--x--|--x--|--x--|--7--|--7--|--x--|--x--|--10--|--10--|
E|--x--|--x--|--x--|--x--|--x--|--x--|--7--|--x--|--x--|--12--|--x---|
						

E Minor Barre Chords

e|--12----7--|
B|--12----8--|
G|--12----9--|
D|--14----9--|
A|--14----7--|
E|--12----x--|