E Major Arpeggio Guitar Tabs

E Major Arpeggio Pattern 1

e|-----------------0-----------------|
B|--------------0-----0--------------|
G|-----------1-----------1-----------|
D|--------2-----------------2--------|
A|-----2-----------------------2-----|
E|--0-----------------------------0--|
						

E Major Arpeggio Pattern 2

e|--------------4--------------------------|
B|-----------5-----5-----------------------|
G|--------4-----------4--------------------|
D|--2--6-----------------6--2-----------2--|
A|-----------------------------2-----2-----|
E|--------------------------------4--------|
						

E Major Arpeggio Pattern 3

e|--------------4--7--4--------------------------|
B|-----------5-----------5-----------------------|
G|--------4-----------------4--------------------|
D|-----6-----------------------6-----------------|
A|--7-----------------------------7-----------7--|
E|-----------------------------------7--4--7-----|
						

E Major Arpeggio Pattern 4

e|-----------------7-----------------------|
B|--------------9-----9--------------------|
G|-----------9-----------9-----------------|
D|-----6--9-----------------9--6-----------|
A|--7-----------------------------7-----7--|
E|-----------------------------------7-----|
						

E Major Arpeggio Pattern 5

e|-----------------------12-----------------------|
B|----------------9--12------12--9----------------|
G|-------------9--------------------9-------------|
D|----------9--------------------------9----------|
A|------11--------------------------------11------|
E|--12----------------------------------------12--|