E Dominant Seventh Arpeggio Guitar Tabs

E Dominant Seventh Arpeggio Pattern 1

e|-----------------4-----------------|
B|-----------3--5-----5--3-----------|
G|--------4-----------------4--------|
D|--2--6-----------------------6--2--|
A|-----------------------------------|
E|-----------------------------------|

		

E Dominant Seventh Arpeggio Pattern 2

e|-----------------4--7--4-----------------|
B|--------------5-----------5--------------|
G|--------4--7-----------------7--4--------|
D|-----6-----------------------------6-----|
A|--7-----------------------------------7--|
E|-----------------------------------------|

		

E Dominant Seventh Arpeggio Pattern 3

e|--------------------7--10--7--------------------|
B|-----------------9------------9-----------------|
G|-----------7--9------------------9--7-----------|
D|-----6--9------------------------------9--6-----|
A|--7------------------------------------------7--|
E|------------------------------------------------|
		

E Dominant Seventh Arpeggio Pattern 5

e|---------------------------10--12--10---------------------------|
B|--------------------9--12--------------12--9--------------------|
G|-----------------9----------------------------9-----------------|
D|----------9--12----------------------------------12--9----------|
A|------11------------------------------------------------11------|
E|--12--------------------------------------------------------12--|
		

E Dominant Seventh Arpeggio Pattern 4

e|----------------------------------12----------------------------------|
B|--------------------------12--15------15--12--------------------------|
G|----------------------13----------------------13----------------------|
D|--------------12--14------------------------------14--12--------------|
A|------11--14----------------------------------------------14--11------|
E|--12--------------------------------------------------------------12--|