D Minor Scales Guitar Tabs

D Natural Minor Scale starting on the D string

e|-----------------------------------------------|
B|--------------------1--3--1--------------------|
G|-----------0--2--3-----------3--2--0-----------|
D|--0--2--3-----------------------------3--2--0--|
A|-----------------------------------------------|
E|-----------------------------------------------|
						

D Natural Minor Scale starting on the low E string

e|--------------------------------------------------------------|
B|--------------------------------------------------------------|
G|--------------------------------------------------------------|
D|--------------------------10--12--10--------------------------|
A|--------------10--12--13--------------13--12--10--------------|
E|--10--12--13--------------------------------------13--12--10--|
						

D Harmonic Minor Scale starting on the D string

e|-----------------------------------------------|
B|--------------------2--3--2--------------------|
G|-----------0--2--3-----------3--2--0-----------|
D|--0--2--3-----------------------------3--2--0--|
A|-----------------------------------------------|
E|-----------------------------------------------|
						

D Harmonic Minor Scale starting on the low E string

e|--------------------------------------------------------------|
B|--------------------------------------------------------------|
G|--------------------------------------------------------------|
D|--------------------------11--12--11--------------------------|
A|--------------10--12--13--------------13--12--10--------------|
E|--10--12--13--------------------------------------13--12--10--|