D Minor Guitar Chord Tabs

D Minor Open Chord

e|--1--|
B|--3--|
G|--2--|
D|--0--|
A|--x--|
E|--x--|
						

D Minor Triads

e|--1--|--x--|--x--|--x--|--x--|--5--|--x---|--x---|--x---|--10--|
B|--3--|--3--|--x--|--x--|--6--|--6--|--x---|--x---|--10--|--10--|
G|--2--|--2--|--2--|--x--|--7--|--7--|--x---|--10--|--10--|--10--|
D|--x--|--3--|--3--|--3--|--7--|--x--|--7---|--12--|--12--|--x---|
A|--x--|--x--|--5--|--5--|--x--|--x--|--8---|--12--|--x---|--x---|
E|--x--|--x--|--x--|--5--|--x--|--x--|--10--|--x---|--x---|--x---|
						

D Minor Barre Chords

e|--10----5--|
B|--10----6--|
G|--10----7--|
D|--12----7--|
A|--12----5--|
E|--10----x--|