D minor Arpeggio Guitar Tabs

D minor Arpeggio Pattern 1

e|--------------1--------------------------|
B|-----------3-----3-----------------------|
G|--------2-----------2--------------------|
D|--0--3-----------------3--0-----------0--|
A|-----------------------------0-----0-----|
E|--------------------------------1--------|
						

D minor Arpeggio Pattern 2

e|--------------1--5--1--------------------------|
B|-----------3-----------3-----------------------|
G|--------2-----------------2--------------------|
D|-----3-----------------------3-----------------|
A|--5-----------------------------5-----------5--|
E|-----------------------------------5--1--5-----|
						

D minor Arpeggio Pattern 3

e|-----------------5-----------------------|
B|--------------6-----6--------------------|
G|-----------7-----------7-----------------|
D|--------7-----------------7--------------|
A|--5--8-----------------------8--5-----5--|
E|-----------------------------------5-----|
						

D minor Arpeggio Pattern 4

e|-----------------------10-----------------------|
B|-------------------10------10-------------------|
G|------------7--10--------------10--7------------|
D|---------7----------------------------7---------|
A|------8----------------------------------8------|
E|--10----------------------------------------10--|
						

D minor Arpeggio Pattern 5

e|--------------------------10--------------------------|
B|----------------------10------10----------------------|
G|------------------10--------------10------------------|
D|--------------12----------------------12--------------|
A|----------12------------------------------12----------|
E|--10--13--------------------------------------13--10--|