D Major Scale Guitar Tabs

D Major Scale starting on the low E or 6th string

e|---------------------------------------------------9--10--|
B|-------------------------------------------10--12---------|
G|--------------------------------9--11--12-----------------|
D|---------------------9--11--12----------------------------|
A|----------9--10--12---------------------------------------|
E|--10--12--------------------------------------------------|
						
e|--10--9---------------------------------------------------|
B|---------12--10-------------------------------------------|
G|-----------------12--11--9--------------------------------|
D|----------------------------12--11--9---------------------|
A|---------------------------------------12--10--9----------|
E|--------------------------------------------------12--10--|
						

D Major Scale starting on the A or 5th string

e|-----------------------------------------------|
B|-----------------------------------------------|
G|-----------------4--6--7--6--4-----------------|
D|--------4--5--7-----------------7--5--4--------|
A|--5--7-----------------------------------7--5--|
E|-----------------------------------------------|
						

D Major Scale starting on the D or 4th string

e|--------------------------------------------------------------|
B|----------------------12--14--15--14--12----------------------|
G|----------11--12--14----------------------14--12--11----------|
D|--12--14----------------------------------------------14--12--|
A|--------------------------------------------------------------|
E|--------------------------------------------------------------|
						

D Major Scale starting on the G or 3rd string

e|------------------7--9--10--9--7------------------|
B|--------7--8--10------------------10--8--7--------|
G|--7--9--------------------------------------9--7--|
D|--------------------------------------------------|
A|--------------------------------------------------|
E|--------------------------------------------------|