D Major Arpeggio Guitar Tabs

D Major Arpeggio Pattern 1

e|--------------2--------------------------|
B|-----------3-----3-----------------------|
G|--------2-----------2--------------------|
D|--0--4-----------------4--0-----------0--|
A|-----------------------------0-----0-----|
E|--------------------------------2--------|
						

D Major Arpeggio Pattern 2

e|--------------2--5--2--------------------------|
B|-----------3-----------3-----------------------|
G|--------2-----------------2--------------------|
D|-----4-----------------------4-----------------|
A|--5-----------------------------5-----------5--|
E|-----------------------------------5--2--5-----|
						

D Major Arpeggio Pattern 3

e|-----------------5-----------------------|
B|--------------7-----7--------------------|
G|-----------7-----------7-----------------|
D|-----4--7-----------------7--4-----------|
A|--5-----------------------------5-----5--|
E|-----------------------------------5-----|
						

D Major Arpeggio Pattern 4

e|----------------------10----------------------|
B|---------------7--10------10--7---------------|
G|------------7--------------------7------------|
D|---------7--------------------------7---------|
A|------9--------------------------------9------|
E|--10--------------------------------------10--|
						

D Major Arpeggio Pattern 5

e|-------------------------10-------------------------|
B|---------------------10------10---------------------|
G|-----------------11--------------11-----------------|
D|-------------12----------------------12-------------|
A|------9--12------------------------------12--9------|
E|--10--------------------------------------------10--|