D Dominant Seventh Arpeggio Guitar Tabs

D Dominant Seventh Arpeggio Pattern 1

e|-----------------2--5--2------------------|
B|--------------3-----------3---------------|
G|--------2--5-----------------5--2---------|
D|-----4------------------------------4-----|
A|--5------------------------------------5--|
E|------------------------------------------|
		

D Dominant Seventh Arpeggio Pattern 2

e|--------------------5--8--5--------------------|
B|-----------------7-----------7-----------------|
G|-----------5--7-----------------7--5-----------|
D|-----4--7-----------------------------7--4-----|
A|--5-----------------------------------------5--|
E|-----------------------------------------------|
		

D Dominant Seventh Arpeggio Pattern 3

e|--------------------------8--10--8-------------------------|
B|-------------------7--10------------10--8------------------|
G|----------------7--------------------------7---------------|
D|---------7--10--------------------------------10--7--------|
A|------9----------------------------------------------9-----|
E|--10---------------------------------------------------10--|
		

D Dominant Seventh Arpeggio Pattern 5

e|---------------------------------10---------------------------------|
B|-------------------------10--13------13--10-------------------------|
G|---------------------11----------------------10---------------------|
D|-------------10--12------------------------------12--10-------------|
A|------9--12----------------------------------------------12--9------|
E|--10------------------------------------------------------------10--|
		

D Dominant Seventh Arpeggio Pattern 4

e|-----------------2-----------------|
B|-----------1--3-----3--1-----------|
G|--------2-----------------2--------|
D|--0--4-----------------------4--0--|
A|-----------------------------------|
E|-----------------------------------|