C Minor Guitar Chord Tabs

C Minor Open Chord

e|--x--|
B|--1--|
G|--0--|
D|--1--|
A|--3--|
E|--x--|
						

C Minor Triads

e|--x--|--x--|--x--|--x--|--3--|--x--|--8--|--x---|--x---|--11--|
B|--x--|--x--|--1--|--4--|--4--|--x--|--8--|--8---|--x---|--13--|
G|--0--|--x--|--0--|--5--|--5--|--x--|--8--|--8---|--8---|--12--|
D|--1--|--1--|--1--|--5--|--x--|--5--|--x--|--10--|--10--|--x---|
A|--3--|--3--|--x--|--x--|--x--|--6--|--x--|--x---|--10--|--x---|
E|--x--|--3--|--x--|--x--|--x--|--8--|--x--|--x---|--x---|--x---|
						

C Minor Barre Chords

e|--8----3--|
B|--8----4--|
G|--8----5--|
D|--10---5--|
A|--10---3--|
E|--8----x--|