C Major Guitar Chord Tabs

C Major Open Chord

e|--x--|
B|--1--|
G|--0--|
D|--2--|
A|--3--|
E|--x--|
						

C Major Triads

e|--x--|--x--|--x--|--x--|--3--|--x--|--8--|--x---|--x---|--12--|
B|--x--|--x--|--1--|--5--|--5--|--x--|--8--|--8---|--x---|--13--|
G|--0--|--x--|--0--|--5--|--5--|--x--|--9--|--9---|--9---|--12--|
D|--2--|--2--|--2--|--5--|--x--|--5--|--x--|--10--|--10--|--x---|
A|--3--|--3--|--x--|--x--|--x--|--7--|--x--|--x---|--10--|--x---|
E|--x--|--3--|--x--|--x--|--x--|--8--|--x--|--x---|--x---|--x---|
						

C Major Barre Chords

e|--8----3--|
B|--8----5--|
G|--9----5--|
D|--10---5--|
A|--10---3--|
E|--8----x--|