C Dominant Seventh Arpeggio Guitar Tabs

C Dominant Seventh Arpeggio Pattern 1

e|------------------0--3--0------------------|
B|---------------1-----------1---------------|
G|---------0--3-----------------3--0---------|
D|-----2-------------------------------2-----|
A|--3-------------------------------------3--|
E|-------------------------------------------|
		

C Dominant Seventh Arpeggio Pattern 2

e|--------------------3--6--3--------------------|
B|-----------------5-----------5-----------------|
G|-----------3--5-----------------5--3-----------|
D|-----2--5-----------------------------5--2-----|
A|--3-----------------------------------------3--|
E|-----------------------------------------------|
		

C Dominant Seventh Arpeggio Pattern 3

e|-----------------------6--8--6-----------------------|
B|-----------------5--8-----------8--6-----------------|
G|--------------5-----------------------5--------------|
D|--------5--8-----------------------------8--5--------|
A|-----7-----------------------------------------7-----|
E|--8-----------------------------------------------8--|
		

C Dominant Seventh Arpeggio Pattern 5

e|-----------------------------8-----------------------------|
B|----------------------8--11-----11--8----------------------|
G|-------------------9-------------------9-------------------|
D|------------8--10-------------------------10--8------------|
A|-----7--10---------------------------------------10--7-----|
E|--8-----------------------------------------------------8--|
		

C Dominant Seventh Arpeggio Pattern 4

e|----------------------12----------------------|
B|--------------11--13------13--11--------------|
G|----------12----------------------12----------|
D|--10--14------------------------------14--10--|
A|----------------------------------------------|
E|----------------------------------------------|