B Minor Scales Guitar Tabs

B Natural Minor Scale starting on the D string

e|----------------------------------------------------------|
B|------------------------10--12--10------------------------|
G|-------------9--11--12--------------12--11--9-------------|
D|--9--11--12------------------------------------12--11--9--|
A|----------------------------------------------------------|
E|----------------------------------------------------------|
						

B Natural Minor Scale starting on the low E string

e|---------------------------------------------------|
B|---------------------------------------------------|
G|---------------------------------------------------|
D|----------------------7--9--7----------------------|
A|------------7--9--10-----------10--9--7------------|
E|--7--9--10-------------------------------10--9--7--|
						

B Harmonic Minor Scale starting on the D string

e|----------------------------------------------------------|
B|------------------------11--12--11------------------------|
G|-------------9--11--12--------------12--11--9-------------|
D|--9--11--12------------------------------------12--11--9--|
A|----------------------------------------------------------|
E|----------------------------------------------------------|
						

B Harmonic Minor Scale starting on the low E string

e|---------------------------------------------------|
B|---------------------------------------------------|
G|---------------------------------------------------|
D|----------------------8--9--8----------------------|
A|------------7--9--10-----------10--9--7------------|
E|--7--9--10-------------------------------10--9--7--|