B Minor Guitar Chord Tabs

B Minor Triads

e|--2--|--x--|--x--|--7--|--x--|--x--|--x---|--10--|--x---|--x---|
B|--3--|--3--|--x--|--7--|--7--|--x--|--x---|--12--|--12--|--x---|
G|--4--|--4--|--x--|--7--|--7--|--7--|--x---|--11--|--11--|--11--|
D|--x--|--4--|--4--|--x--|--9--|--9--|--9---|--x---|--12--|--12--|
A|--x--|--x--|--5--|--x--|--x--|--9--|--9---|--x---|--x---|--14--|
E|--x--|--x--|--7--|--x--|--x--|--x--|--10--|--x---|--x---|--x---|
						

B Minor Barre Chords

e|--2----7--|
B|--3----7--|
G|--4----7--|
D|--4----9--|
A|--2----9--|
E|--x----7--|