B minor Arpeggio Guitar Tabs

B minor Arpeggio Pattern 1

e|-----------------2-----------------------|
B|--------------3-----3--------------------|
G|-----------4-----------4-----------------|
D|--------4-----------------4--------------|
A|--2--5-----------------------5--2-----2--|
E|-----------------------------------2-----|
						

B minor Arpeggio Pattern 2

e|--------------------7--------------------|
B|-----------------7-----7-----------------|
G|-----------4--7-----------7--4-----------|
D|--------4-----------------------4--------|
A|-----5-----------------------------5-----|
E|--7-----------------------------------7--|
						

B minor Arpeggio Pattern 3

e|---------------------7---------------------|
B|------------------7-----7------------------|
G|---------------7-----------7---------------|
D|------------9-----------------9------------|
A|---------9-----------------------9---------|
E|--7--10-----------------------------10--7--|
						

B minor Arpeggio Pattern 4

e|-----------------10------------------------------|
B|-------------12------12--------------------------|
G|---------11--------------11----------------------|
D|--9--12----------------------12--9------------9--|
A|------------------------------------9------9-----|
E|---------------------------------------10--------|
						

B minor Arpeggio Pattern 5

e|------------------10--14--10----------------------------------|
B|--------------12--------------12------------------------------|
G|----------11----------------------11--------------------------|
D|------12------------------------------12----------------------|
A|--14--------------------------------------14--------------14--|
E|----------------------------------------------14--10--14------|