B Major Scale Guitar Tabs

B Major Scale starting on the low E or 6th string

e|-----------------------------------------6--7--|
B|-----------------------------------7--9--------|
G|--------------------------6--8--9--------------|
D|-----------------6--8--9-----------------------|
A|--------6--7--9--------------------------------|
E|--7--9-----------------------------------------|
						
e|--7--6-----------------------------------------|
B|--------9--7-----------------------------------|
G|--------------9--8--6--------------------------|
D|-----------------------9--8--6-----------------|
A|--------------------------------9--7--6--------|
E|-----------------------------------------9--7--|
						

B Major Scale starting on the A or 5th string

e|-----------------------------------------------|
B|-----------------------------------------------|
G|-----------------1--3--4--3--1-----------------|
D|--------1--2--4-----------------4--2--1--------|
A|--2--4-----------------------------------4--2--|
E|-----------------------------------------------|
						

B Major Scale starting on the D or 4th string

e|------------------------------------------------------|
B|-------------------9--11--12--11--9-------------------|
G|---------8--9--11--------------------11--9--8---------|
D|--9--11----------------------------------------11--9--|
A|------------------------------------------------------|
E|------------------------------------------------------|
						

B Major Scale starting on the G or 3rd string

e|-----------------4--6--7--6--4-----------------|
B|--------4--5--7-----------------7--5--4--------|
G|--4--6-----------------------------------6--4--|
D|-----------------------------------------------|
A|-----------------------------------------------|
E|-----------------------------------------------|