B Major Guitar Chord Tabs

B Major Triads

e|--2--|--x--|--x--|--7--|--x--|--x--|--x---|--11--|--x---|--x---|
B|--4--|--4--|--x--|--7--|--7--|--x--|--x---|--12--|--12--|--x---|
G|--4--|--4--|--x--|--8--|--8--|--8--|--x---|--11--|--11--|--11--|
D|--x--|--4--|--4--|--x--|--9--|--9--|--9---|--x---|--13--|--13--|
A|--x--|--x--|--6--|--x--|--x--|--9--|--9---|--x---|--x---|--14--|
E|--x--|--x--|--7--|--x--|--x--|--x--|--11--|--x---|--x---|--x---|
						

B Major Barre Chords

e|--2----7--|
B|--4----7--|
G|--4----8--|
D|--4----9--|
A|--2----9--|
E|--x----7--|