B Major Arpeggio Guitar Tabs

B Major Arpeggio Pattern 1

e|-----------------2-----------------------|
B|--------------4-----4--------------------|
G|-----------4-----------4-----------------|
D|-----1--4-----------------4--1-----------|
A|--2-----------------------------2-----2--|
E|-----------------------------------2-----|
						

B Major Arpeggio Pattern 2

e|--------------------7--------------------|
B|--------------4--7-----7--4--------------|
G|-----------4-----------------4-----------|
D|--------4-----------------------4--------|
A|-----6-----------------------------6-----|
E|--7-----------------------------------7--|
						

B Major Arpeggio Pattern 3

e|--------------------7--------------------|
B|-----------------7-----7-----------------|
G|--------------8-----------8--------------|
D|-----------9-----------------9-----------|
A|-----6--9-----------------------9--6-----|
E|--7-----------------------------------7--|
						

B Major Arpeggio Pattern 4

e|-----------------11------------------------------|
B|-------------12------12--------------------------|
G|---------11--------------11----------------------|
D|--9--13----------------------13--9------------9--|
A|------------------------------------9------9-----|
E|---------------------------------------11--------|
						

B Major Arpeggio Pattern 5

e|------------------11--14--11----------------------------------|
B|--------------12--------------12------------------------------|
G|----------11----------------------11--------------------------|
D|------13------------------------------13----------------------|
A|--14--------------------------------------14--------------14--|
E|----------------------------------------------14--11--14------|