B Dominant Seventh Arpeggio Guitar Tabs

B Dominant Seventh Arpeggio Pattern 1

e|--------------------2--5--2--------------------|
B|-----------------4-----------4-----------------|
G|-----------2--4-----------------4--2-----------|
D|-----1--4-----------------------------4--1-----|
A|--2-----------------------------------------2--|
E|-----------------------------------------------|
		

B Dominant Seventh Arpeggio Pattern 2

e|-----------------------5--7--5------------------------|
B|-----------------4--7-----------7--4------------------|
G|--------------4-----------------------4---------------|
D|--------4--7-----------------------------7--4---------|
A|-----6------------------------------------------6-----|
E|--7------------------------------------------------7--|
		

B Dominant Seventh Arpeggio Pattern 3

e|---------------------------7--------------------------|
B|--------------------7--10-----10--7-------------------|
G|-----------------8------------------8-----------------|
D|-----------7--9------------------------9--7-----------|
A|-----6--9------------------------------------9--6-----|
E|--7------------------------------------------------7--|
		

B Dominant Seventh Arpeggio Pattern 4

e|---------------------11--------------------|
B|-------------10--12-----12--10-------------|
G|---------11---------------------11---------|
D|--9--13-----------------------------13--9--|
A|-------------------------------------------|
E|-------------------------------------------|
		

B Dominant Seventh Arpeggio Pattern 5

e|---------------------11--14--11----------------------|
B|-----------------12--------------12------------------|
G|----------11--14---------------------14--11----------|
D|------13-------------------------------------13------|
A|--14---------------------------------------------14--|
E|-----------------------------------------------------|