A Minor Scales Guitar Tabs

A Natural Minor Scale starting on the D string

e|----------------------------------------------------|
B|----------------------8--10--8----------------------|
G|------------7--9--10------------10--9--7------------|
D|--7--9--10--------------------------------10--9--7--|
A|----------------------------------------------------|
E|----------------------------------------------------|
						

A Natural Minor Scale starting on the low E string

e|-----------------------------------------------|
B|-----------------------------------------------|
G|-----------------------------------------------|
D|--------------------5--7--5--------------------|
A|-----------5--7--8-----------8--7--5-----------|
E|--5--7--8-----------------------------8--7--5--|
						

A Harmonic Minor Scale starting on the D string

e|----------------------------------------------------|
B|----------------------9--10--9----------------------|
G|------------7--9--10------------10--9--7------------|
D|--7--9--10--------------------------------10--9--7--|
A|----------------------------------------------------|
E|----------------------------------------------------|
						

A Harmonic Minor Scale starting on the low E string

e|-----------------------------------------------|
B|-----------------------------------------------|
G|-----------------------------------------------|
D|--------------------6--7--6--------------------|
A|-----------5--7--8-----------8--7--5-----------|
E|--5--7--8-----------------------------8--7--5--|