A minor Arpeggio Guitar Tabs

A minor Arpeggio Pattern 1

e|----------------0-----------------------|
B|-------------1-----1--------------------|
G|----------2-----------2-----------------|
D|-------2-----------------2--------------|
A|--0--3----------------------3--0-----0--|
E|----------------------------------0-----|
						

A minor Arpeggio Pattern 2

e|--------------------5--------------------|
B|-----------------5-----5-----------------|
G|-----------2--5-----------5--2-----------|
D|--------2-----------------------2--------|
A|-----3-----------------------------3-----|
E|--5-----------------------------------5--|
						

A minor Arpeggio Pattern 3

e|--------------------5--------------------|
B|-----------------5-----5-----------------|
G|--------------5-----------5--------------|
D|-----------7-----------------7-----------|
A|--------7-----------------------7--------|
E|--5--8-----------------------------8--5--|
						

A minor Arpeggio Pattern 4

e|----------------8----------------------------|
B|------------10-----10------------------------|
G|---------9-------------9---------------------|
D|--7--10-------------------10--7-----------7--|
A|---------------------------------7-----7-----|
E|------------------------------------8--------|
						

A minor Arpeggio Pattern 5

pre> e|-----------------8--12--8--------------------------------| B|-------------10------------10----------------------------| G|----------9--------------------9-------------------------| D|------10--------------------------10---------------------| A|--12----------------------------------12-------------12--| E|------------------------------------------12--8--12------|